Bob Esponja - Cancion inicial

Ver el tema anterior Ver el tema siguiente Ir abajo

Bob Esponja - Cancion inicial

Mensaje  J3$$!3 el Sáb Oct 04, 2008 1:22 am

Uhhh! Vive en una piña de bajo del mar
Bob esponja
e-3-0-------
b------3-0--
g-----------


su cuerpo absorbe y sin estallar
Bob esponja
e-3-0-------
b------3—0—-
g-----------


el mejor amigo que podrías desear
Bob esponja
e-3-0-------
b------3—0—-
g-----------

y como un pez le es fácil flotar
Bob esponja todos!
e-3-0-------
b------3—0—-
g-----------


Bob esponja Bob esponja Bob esponja
e-3--0----------3--0----------3--0--------
b-------3--0----------3--0----------3--0--
g-----------------------------------------


el es Bob esponja!!!!!!!!jajajaja
e-------0---2--3--3-------------
b-3--3--------------------------
g-------------------------------


el silbido
e-3-3--5-3--7-3---3---------------------
b----------------3----------------------
c---------------------------------------
el silbido se oye mejor tocándolo rápido
avatar
J3$$!3
Moderador en práctica
Moderador en práctica

Femenino
Cantidad de envíos : 56
Edad : 28
Humor : Cansada
Barra de spam :
0 / 1000 / 100

Barra de participación :
100 / 100100 / 100

Medallitas :
Monedas : 96
Fecha de inscripción : 02/10/2008

Ver perfil de usuario

Volver arriba Ir abajo

Ver el tema anterior Ver el tema siguiente Volver arriba

- Temas similares

 
Permisos de este foro:
No puedes responder a temas en este foro.