Bob Esponja - Final

Ver el tema anterior Ver el tema siguiente Ir abajo

Bob Esponja - Final

Mensaje  J3$$!3 el Sáb Oct 04, 2008 1:23 am

1---7---7---7-6-7-9-7---7---7---7-6-7-9-7----7-6-7-9-7---11/12---
2---9---9---------------9---9------------------------------------
3---9---9---------------9---9------------------------------------
4----------------------------------------------------------------
5-----7-------------------7--------------------------------------
6-7-------------------7-----------------------------------------0

1---7---7---7-6-7-9-7---7---7---7-6-7-9-7----7-6-7-9-7---11/12---
2---9---9---------------9---9------------------------------------
3---9---9---------------9---9------------------------------------
4----------------------------------------------------------------
5-----7-------------------7--------------------------------------
6-7-------------------7-----------------------------------------0
avatar
J3$$!3
Moderador en práctica
Moderador en práctica

Femenino
Cantidad de envíos : 56
Edad : 28
Humor : Cansada
Barra de spam :
0 / 1000 / 100

Barra de participación :
100 / 100100 / 100

Medallitas :
Monedas : 96
Fecha de inscripción : 02/10/2008

Ver perfil de usuario

Volver arriba Ir abajo

Ver el tema anterior Ver el tema siguiente Volver arriba

- Temas similares

 
Permisos de este foro:
No puedes responder a temas en este foro.