Misión Imposible 2

Ver el tema anterior Ver el tema siguiente Ir abajo

Misión Imposible 2

Mensaje  J3$$!3 el Sáb Oct 04, 2008 1:16 am

Este es el tab del tema central de la pelicula, escucha el soundtrack
para que le halles el ritmo y le entiendas bien:

INTRO (x8)

e|----------------------------------------------------------------------|
B|----------------------------------------------------------------------|
G|----------------------------------------------------------------------|
D|----------------------------------------------------------------------|
A|---------------------------8h10p8-------------------------------------|
E|-10--10--10--10--10--10---------------10--10--10--10--10--10--8--9----|


Verso

e|-16------16------16------16--------------------------------|
B|---18------18------18------18------------------------------|
G|-----17------16------15------18--18-18-18--17-17-17--------|
D|-----------------------------------------------------------|
A|-----------------------------------------------------------|
E|-----------------------------------------------------------|


Pre-Coro:(x4)

(w/dist)

e|------------------------------------------------------------|
B|------------------------------------------------------------|
G|------------------------------------------------------------|
D|------------------------------------------------------------|
A|-------------------------1--3-------------------------------|
E|-1h3---1h3---1h3---1h3---------1h3---1h3---1h3---1h3---1--2-|



Coro (x2)

(w/dist)

e|-------------------------------------------------------------|
B|-------------------------------------------------------------|
G|-------------------------3-5---------------------------------|
D|-------------------------1-3---------------------------------|
A|-3-5---3-5---3-5---3-5---------3-5---3-5---3-5---3-5---3--4--|
E|-1-3---1-3---1-3---1-3---------1-3---1-3---1-3---1-3---1--2--|



e|----------------------------------------------------------------------|
B|----------------------------------------------------------------------|
G|----------------------------3--5--------------------------------------|
D|----------------------------1--3--------------------------------------|
A|-x-5---x-5---x-5----x-5-3------------x-5---x-5---x-5----3-5-3---3--4--|
E|-x-3---x-3---x-3----x-3-1------------x-3---x-3---x-3----1-3-1---1--2--|




e|--------------------------|
B|--------------------------|
G|-------3--5---------------|
D|-------1--3---------------|
A|-5-5---------5-5---3-4----|
E|-3-3---------3-3---1-2----|
avatar
J3$$!3
Moderador en práctica
Moderador en práctica

Femenino
Cantidad de envíos : 56
Edad : 28
Humor : Cansada
Barra de spam :
0 / 1000 / 100

Barra de participación :
100 / 100100 / 100

Medallitas :
Monedas : 96
Fecha de inscripción : 02/10/2008

Ver perfil de usuario

Volver arriba Ir abajo

Ver el tema anterior Ver el tema siguiente Volver arriba

- Temas similares

 
Permisos de este foro:
No puedes responder a temas en este foro.