Mision Imposible

Ver el tema anterior Ver el tema siguiente Ir abajo

Mision Imposible

Mensaje  J3$$!3 el Sáb Oct 04, 2008 1:14 am

-----------------------------------------------------
-----------------------------------------------------
-----------------------------------------------------
-----------------------------------------------------
--------2-4------------------------2-4---------------
-4-4-4-4----4-4-4-4-2-3-4--4-4-4-4------4-4-4-4-2-3-4


----------------|
-1---1--1-------|
--2---2--2------|
---2---1--0---0-|
-------------3--|
----------------|
avatar
J3$$!3
Moderador en práctica
Moderador en práctica

Femenino
Cantidad de envíos : 56
Edad : 28
Humor : Cansada
Barra de spam :
0 / 1000 / 100

Barra de participación :
100 / 100100 / 100

Medallitas :
Monedas : 96
Fecha de inscripción : 02/10/2008

Ver perfil de usuario

Volver arriba Ir abajo

Ver el tema anterior Ver el tema siguiente Volver arriba

- Temas similares

 
Permisos de este foro:
No puedes responder a temas en este foro.