Juanes (A Dios le pido)

Ver el tema anterior Ver el tema siguiente Ir abajo

Juanes (A Dios le pido)

Mensaje  J3$$!3 el Vie Oct 03, 2008 11:55 pm

aca esta la tablatura toquenla con Lam Y Mi

e|-----------------------------|-----------------------|
B|-----------------------------|-----5--5---------5--5-|
G|---4-7-7---4-7-7---4-7-7-----|---5--5---5-----5--5---|
D|-6-------6-------6-------6-7-|-7---------7--7--------|
A|-----------------------------|-----------------------|
E|-----------------------------|-----------------------|


e|---------------------------|-----------5---5-5---5-|-4-----4-7-10-8-7----8-7---------|
B|---------------------------|-----5---5---5---------|---5-5------------10-----10-9-10-|
G|-7-4-----4-7-7---4-7-7-----|---5---5---------------|---------------------------------|
D|-----6-6-------6-------6-7-|-7-----------------7---|---------------------------------|
A|---------------------------|-----------------------|---------------------------------|
E|---------------------------|-----------------------|---------------------------------|
avatar
J3$$!3
Moderador en práctica
Moderador en práctica

Femenino
Cantidad de envíos : 56
Edad : 28
Humor : Cansada
Barra de spam :
0 / 1000 / 100

Barra de participación :
100 / 100100 / 100

Medallitas :
Monedas : 96
Fecha de inscripción : 02/10/2008

Ver perfil de usuario

Volver arriba Ir abajo

Ver el tema anterior Ver el tema siguiente Volver arriba

- Temas similares

 
Permisos de este foro:
No puedes responder a temas en este foro.