Yo te quiero

Ver el tema anterior Ver el tema siguiente Ir abajo

Yo te quiero

Mensaje  J3$$!3 el Sáb Oct 04, 2008 1:49 am

1|----6---------------4-----------
2|---7----7-6--4-----4----7-6--4--
3|--6---------------4------------- x2
4|--------------------------------
5|--------------------------------
6|--------------------------------

Ayer la vi... solita... y me desespero... señorita...
1|-----------|-------------------------|-----------|
2|-----------|--15-14-13-15-14-13-12~--|-----------|
3|--7-7-7h9--|-------------------------|--7-7-7h9--|
4|-----------|-------------------------|-----------|
5|-----------|-------------------------|-----------|
6|-----------|-------------------------|-----------|

tu sabes que por ti me muero...

dejame hablarte... deja orientarte...
1|--------------------------|--------------------|
2|-------------14---13---12-|----------13---11~--|
3|--------------------------|--------------------|
4|--------------------------|--------------------|
5|--------------------------|--------------------|
6|--------------------------|--------------------|
avatar
J3$$!3
Moderador en práctica
Moderador en práctica

Femenino
Cantidad de envíos : 56
Edad : 28
Humor : Cansada
Barra de spam :
0 / 1000 / 100

Barra de participación :
100 / 100100 / 100

Medallitas :
Monedas : 96
Fecha de inscripción : 02/10/2008

Ver perfil de usuario

Volver arriba Ir abajo

Re: Yo te quiero

Mensaje  leandrojulian el Sáb Oct 04, 2008 9:49 pm

Shocked Me impresionas! te pongo un 100% de la barra de participación, y 100 monedas Very Happy

Sigue tan bien y te daré una sorpresa
Smile

leandrojulian
Administrador
Administrador

Masculino
Cantidad de envíos : 51
Edad : 19
Barra de spam :
0 / 1000 / 100

Barra de participación :
100 / 100100 / 100

Medallitas :
Monedas :
Fecha de inscripción : 25/04/2008

Ver perfil de usuario http://mundopartitura.superforo.net

Volver arriba Ir abajo

Re: Yo te quiero

Mensaje  J3$$!3 el Sáb Oct 04, 2008 10:01 pm

Gracias
avatar
J3$$!3
Moderador en práctica
Moderador en práctica

Femenino
Cantidad de envíos : 56
Edad : 28
Humor : Cansada
Barra de spam :
0 / 1000 / 100

Barra de participación :
100 / 100100 / 100

Medallitas :
Monedas : 96
Fecha de inscripción : 02/10/2008

Ver perfil de usuario

Volver arriba Ir abajo

Re: Yo te quiero

Mensaje  Contenido patrocinado


Contenido patrocinado


Volver arriba Ir abajo

Ver el tema anterior Ver el tema siguiente Volver arriba

- Temas similares

 
Permisos de este foro:
No puedes responder a temas en este foro.