RBD (Sálvame)

Ver el tema anterior Ver el tema siguiente Ir abajo

RBD (Sálvame)

Mensaje  J3$$!3 el Sáb Oct 04, 2008 1:45 am

INTRO: C# G#m B B7M

C# G#m B
E---------4-----------------4-----------------2--------
B-----6-------6---------4-------4---------4-------4----
G---6---6---6---6-----4---4---4---4-----4---4---4---4--
D-6-----------------6-----------------4----------------
A------------------------------------------------------
E------------------------------------------------------
B7M
E---------2---------
B-----4-------4-----
G---3---3---3---3---
D-4-----------------
A-------------------
E-------------------

C# G#m B
Extrañarte es mi necesidad vivo en la desesperanza
E---------4-------- ---------4-------- ---------2--------
B-----6-------6---- -----4-------4---- -----4-------4----
G---6---6---6---6-- ---4---4---4---4-- ---4---4---4---4--
D-6---------------- -6---------------- -4----------------
A------------------ ------------------ ------------------
E------------------ ------------------ ------------------
B7M
desde que tú ya no vuelves mas
E---------2---------
B-----4-------4-----
G---3---3---3---3---
D-4-----------------
A-------------------
E-------------------
C# G#m B
Sobrevivo por pura ansiedad Con el nudo en la garganta
E---------4-------- ---------4-------- ---------2--------
B-----6-------6---- -----4-------4---- -----4-------4----
G---6---6---6---6-- ---4---4---4---4-- ---4---4---4---4--
D-6---------------- -6---------------- -4----------------
A------------------ ------------------ ------------------
E------------------ ------------------ ------------------
B7M
Y es que no te dejo de pensar
E---------2---------
B-----4-------4-----
G---3---3---3---3---
D-4-----------------
A-------------------
E-------------------
F# C#
Poco a poco el corazón
E---------2------------------4--------
B-----2-------2----------6-------6----
G---3---3---3---3------6---6---6---6--
D-4------------------6----------------
A-------------------------------------
E-------------------------------------




B F#
Va perdiendo la fe perdiendo la voz
E---------2----------------2--------
B-----4-------4--------2-------2----
G---4---4---4---4----3---3---3---3--
D-4----------------4----------------
A-------------------------------------
E-------------------------------------

CORO:
G#m B
Sálvame del olvido sálvame de la soledad

F# C#
Sálvame del hastió estoy echo a tu voluntad

G#m B
Sálvame del olvido sálvame de la oscuridad

F# C#
Sálvame del hastió no me dejes caer jamás

C# G#m B
E---------4-----------------4-----------------2--------
B-----6-------6---------4-------4---------4-------4----
G---6---6---6---6-----4---4---4---4-----4---4---4---4--
D-6-----------------6-----------------4----------------
A------------------------------------------------------
E------------------------------------------------------
B7M
E---------2---------
B-----4-------4-----
G---3---3---3---3---
D-4-----------------
A-------------------
E-------------------



C# G#m B
Me propongo tanto continuar pero amor es la palabra
E---------4-------- ---------4-------- ---------2--------
B-----6-------6---- -----4-------4---- -----4-------4----
G---6---6---6---6-- ---4---4---4---4-- ---4---4---4---4--
D-6---------------- -6---------------- -4----------------
A------------------ ------------------ ------------------
E------------------ ------------------ ------------------

B7M
Que me cuesta a veces olvidar
E---------2---------
B-----4-------4-----
G---3---3---3---3---
D-4-----------------
A-------------------
E-------------------





C# G#m B
Sobrevivo por pura ansiedad Con el nudo en la garganta
E---------4-------- ---------4-------- ---------2--------
B-----6-------6---- -----4-------4---- -----4-------4----
G---6---6---6---6-- ---4---4---4---4-- ---4---4---4---4--
D-6---------------- -6---------------- -4----------------
A------------------ ------------------ ------------------
E------------------ ------------------ ------------------
B7M
Y es que no te dejo de pensar
E---------2---------
B-----4-------4-----
G---3---3---3---3---
D-4-----------------
A-------------------
E-------------------


F# C#
Poco a poco el corazón
E---------2------------------4--------
B-----2-------2----------6-------6----
G---3---3---3---3------6---6---6---6--
D-4------------------6----------------
A-------------------------------------
E-------------------------------------

B F#
Va perdiendo la fe perdiendo la voz
E---------2----------------2--------
B-----4-------4--------2-------2----
G---4---4---4---4----3---3---3---3--
D-4----------------4----------------
A-------------------------------------
E-------------------------------------

CORO:
G#m B
Sálvame del olvido sálvame de la soledad

F# C#
Sálvame del hastió estoy echo a tu voluntad

G#m B
Sálvame del olvido sálvame de la oscuridad

F# C#
Sálvame del hastió no me dejes caer jamás


SOLO:
C# G#m B B7M
E--9---9--11-13-------------------------------------------------
B---------------9---9--11--9-12----12-12-11-9------------9---12--
G--------------------------------------------11---11-11---11----
D---------------------------------------------------------------
A---------------------------------------------------------------
E---------------------------------------------------------------



CORO:
G#m B
Sálvame del olvido sálvame de la soledad

F# C#
Sálvame del hastió estoy echo a tu voluntad

G#m B
Sálvame del olvido sálvame de la oscuridad

F# C#
Sálvame del hastió no me dejes caer jamás

G#m B F# C#
Sálvame del olvido Sálvame del hastió

G#m
Sálvame del olvido


Nota: el solo va acompañado de los arpegios de la intro

C# G#m B B7M
E--4------4------2-----2----
B--6------4------4-----4----
G--6------4------4-----3----
D- 6------6------4-----4----
A--4------6------2-----2----
E--4------4------2-----2----
avatar
J3$$!3
Moderador en práctica
Moderador en práctica

Femenino
Cantidad de envíos : 56
Edad : 28
Humor : Cansada
Barra de spam :
0 / 1000 / 100

Barra de participación :
100 / 100100 / 100

Medallitas :
Monedas : 96
Fecha de inscripción : 02/10/2008

Ver perfil de usuario

Volver arriba Ir abajo

Ver el tema anterior Ver el tema siguiente Volver arriba

- Temas similares

 
Permisos de este foro:
No puedes responder a temas en este foro.