RBD (Rebelde)

Ver el tema anterior Ver el tema siguiente Ir abajo

RBD (Rebelde)

Mensaje  J3$$!3 el Sáb Oct 04, 2008 1:44 am

INTRO:

e----------------------------------------------------------
B--3---------3-------------------1--------------3----------
G--0--0--0---2--2--2---0---------0--0--0-----------2-------
D-----0--0------0--0---2--2--2------2--2---2/4--------4----
A-------------------------3--3-----------------------------
E----------------------------------------------------------
G D C
Mientras mi mente viaja a donde tu estas mi padre grita
e-----------------------------------------------------
B--3---------------------------3----------------------
G--0--0--0---------------------2--2--2-------0--------
D-----0--0------------------------0--0-------2--2--2--
A-----------------------------------------------3--3--
E-----------------------------------------------------

Otra vez
e-----------------------------
B----1--------------3---------
G----0--0--0-----------2------
D-------2--2---2/4--------4---
A-----------------------------
E-----------------------------
G D C
Que me malgasto mi futuro y su paz con mi manera
e------------------------------------------------
B--3---------------------3-----------------------
G--0--0--0---------------2--2--2--------0--------
D-----0--0------------------0--0--------2--2--2--
A------------------------------------------3--3--
E------------------------------------------------

De ser
e-----------------------------
B----1--------------3---------
G----0--0--0-----------2------
D-------2--2---2/4--------4---
A-----------------------------
E-----------------------------

D C
Aunque no escucho ya estoy lejos de aquí
e---2-------------2---------------0------------------------
B---3-------------3---------------1---------------1--------
G---2-----------------------------0-------------0---0---0--
D---0-----------------------------2---------0h2-------2----
A---------------------------------3------------------------
E---------------------------------0------------------------

D G
Cierro los ojos y ya estoy pensando en ti
e---2--------2----------------3----------
B---3------3---3---3----------3----------
G---2----2-------2------------0----------
D---0--0----------------------0----------
A-----------------------------2----------
E-----------------------------3----------

CORO:

G D
G5 D5
Y soy rebelde cuando no sigo a los demás
C D
C5 D5
Si soy rebelde cuando te quiero hasta rabiar
G D
G5 D5
Y soy rebelde cuando no pienso igual que ayer
C D
C5 D5
Y soy rebelde cuando me juego hasta la piel

G C D
Si soy rebelde es que quizás nadie me conoce bien


VERSO:

G D C
Alguno de estos días voy a escapar para jugarme todo
e----------------------------------------------
B--3--------------------3----------------------
G--0--0--0--------------2--2--2-------0--------
D-----0--0-----------------0--0-------2--2--2--
A----------------------------------------3--3--
E----------------------------------------------

Por un sueño
e--------0-----0----------
B-----1-----1-----1----0--
G-------------------------
D-------------------------
A-------------------------
E-------------------------
G D
Todo en la vida es a perder o ganar
e--------------------------------------------------
B--3--------------------3------------3—-1/3/1--0---
G--0--0--0--------------2--2--2--------------------
D-----0--0-----------------0--0--------------------
A--------------------------------------------------
E--------------------------------------------------

C
Hay que apostar hay que apostar sin miedo
e---------------------------
B-------0-0/2--2-2/0--0-----
G----2-------------------0--
D---------------------------
A---------------------------
E---------------------------
D C
No importa mucho lo que digan de mi
e---2-------------2---------------0------------------------
B---3-------------3---------------1---------------1--------
G---2-----------------------------0-------------0---0---0--
D---0-----------------------------2---------0h2-------2----
A---------------------------------3------------------------
E---------------------------------0-----------------------
D G
Cierro los ojos y ya estoy pensando en ti
e---2--------2----------------3----------
B---3------3---3---3----------3----------
G---2----2-------2------------0----------
D---0--0----------------------0----------
A-----------------------------2----------
E-----------------------------3----------

CORO:
G D
G5 D5
Y soy rebelde cuando no sigo a los demás
C D
C5 D5
Si soy rebelde cuando te quiero hasta rabiar
G D
G5 D5
Y soy rebelde cuando no pienso igual que ayer
C D
C5 D5
Y soy rebelde cuando me juego hasta la piel

G C
Si soy rebelde es que quizás

SOLO:
C
X mucho G D C D
e--------- ---------------------------------------------------
B--------- --8—8/10--8-7-7---7-8-10------------8-8-10-8-------
G—-0h2---- --------------------------7/9---7-9----------------
D--------- ---------------------------------------------------
A--------- ---------------------------------------------------
E--------- ---------------------------------------------------

G D C
e--8-7-8/17-15-14-14-15-17-17-15-14--------------------------------
B-----------------------------------15---15-15h17--15--------------
G------------------------------------------------------17-16-17----
D------------------------------------------------------------------
A------------------------------------------------------------------
E------------------------------------------------------------------

C
e-------------------------------------------------------------
B—16h17h16-14--12----------12--------12h14h12h14h12-11--------
G--------------------12h14-----12h14--------------------------
D-------------------------------------------------------------
A-------------------------------------------------------------
E-------------------------------------------------------------

D C
No importa mucho lo que digan de mi

D G
Cierro los ojos y ya estoy pensando en ti


CORO:

G D
G5 D5
Y soy rebelde cuando no sigo a los demás
C D
C5 D5
Si soy rebelde cuando te quiero hasta rabiar
G D
G5 D5
Y soy rebelde cuando no pienso igual que ayer
C D
C5 D5
Y soy rebelde cuando me juego hasta la piel

G D
G5 D5
Y soy rebelde cuando no sigo a los demás
C D
C5 D5
Si soy rebelde cuando te quiero hasta rabiar
G D
G5 D5
Y soy rebelde cuando no pienso igual que ayer
C D
C5 D5
Y soy rebelde cuando me juego hasta la piel

G
Y soy rebelde


Tonos:
G5 D5 C5 G D C
e---------------3---2---0-----------
B---------------3---3---1-----------
G------7---5----0---2---0-----------
D--5---7---5----0---0---2-----------
A--5---5---3----2-------3-----------
E--3------------3-------------------
avatar
J3$$!3
Moderador en práctica
Moderador en práctica

Femenino
Cantidad de envíos : 56
Edad : 28
Humor : Cansada
Barra de spam :
0 / 1000 / 100

Barra de participación :
100 / 100100 / 100

Medallitas :
Monedas : 96
Fecha de inscripción : 02/10/2008

Ver perfil de usuario

Volver arriba Ir abajo

Ver el tema anterior Ver el tema siguiente Volver arriba

- Temas similares

 
Permisos de este foro:
No puedes responder a temas en este foro.