RBD (Otro día que va)

Ver el tema anterior Ver el tema siguiente Ir abajo

RBD (Otro día que va)

Mensaje  J3$$!3 el Sáb Oct 04, 2008 1:43 am

INTRO:

e|-7--7--5--5--3--3--10-10--5--5----
B|-8--8--7--7--5--5--12-12--7--7----
G|---0--0--0--0--0--0--0--0--0------
D|----------------------------------
A|----------------------------------
E|----------------------------------

ESTROFAS: Esto se repite durante todas las estrofas
excepto en una parte.

e|-7--7--5--5--3--3--3--3-------------------
B|-8--8--7--7--5--5--3--3-------------------
G|--0--0--0--0--0--0--0--0------------------
D|------------------------------------------
A|------------------------------------------
E|------------------------------------------


PRE-CORO:
Am C Em
e|-----0---------0--------0-----------0---------
B|----1-1-------1-1------0-0---------0----------
G|---2---2-----0---0----0---0-------0-----------
D|--2---------2--------2-----------2------------
A|-0-------0-3--------2-----------2-------------
E|-------------------0-----------0--------------


CORO:
Otro día que va...
e|------------------------------------------
B|------------------------------------------
G|-------77777-555555555--------------------
D|-55555-77777-555555555--------------------
A|-55555-55555-333333333--------------------
E|-33333------------------------------------

En esta parte cambia un poco:

No hay nadie que pueda destruir mi fe...

e|-7--7--5--5--3--3--10--10-----------------
B|-9--9--7--7--5--5--12--12-----------------
G|--0--0--0--0--0--0---0---0----------------
D|------------------------------------------
A|------------------------------------------
E|------------------------------------------
avatar
J3$$!3
Moderador en práctica
Moderador en práctica

Femenino
Cantidad de envíos : 56
Edad : 28
Humor : Cansada
Barra de spam :
0 / 1000 / 100

Barra de participación :
100 / 100100 / 100

Medallitas :
Monedas : 96
Fecha de inscripción : 02/10/2008

Ver perfil de usuario

Volver arriba Ir abajo

Ver el tema anterior Ver el tema siguiente Volver arriba

- Temas similares

 
Permisos de este foro:
No puedes responder a temas en este foro.