RBD (Nuestro Amor)

Ver el tema anterior Ver el tema siguiente Ir abajo

RBD (Nuestro Amor)

Mensaje  J3$$!3 el Sáb Oct 04, 2008 1:42 am

INTRO:

E C#m
e|---------0-------|----------0-------|---------4-------|---------4------|
B|-----0-------0---|------0-------0---|-----5-------5---|-----5-------5--|
G|---1---1---1---1-|----1---1---1---1-|---6---6---6---6-|---6---6---6---6|
D|-----------------|------------------|-----------------|----------------|
A|-----------------|------------------|-4---------------|-4--------------|
E|-0---------------|-0----------------|-----------------|----------------|

A B B
e|---------0-------|---------0-------|---------2-------|--2--|
B|-----2-------2---|-----2-------2---|-----4-------4---|--4--|
G|---2---2---2---2-|---2---2---2---2-|---4---4---4---4-|-----|
D|-----------------|-----------------|-----------------|-----|
A|-0---------------|-0---------------|-2---------------|--2--|
E|-----------------|-----------------|-----------------|-----|

E C#m A
Es tan mágico como todo pasó, en nuestro amor (nuestro amor)
B
nuestro dulce amor.
E C#m A
Es tan fácil que ya nada me sorprende en nuestro amor (nuestro amor)
B
este increíble amor.

A B
Todo fue como en un sueño
A B
en nuestro amor todo va sucediendo

E C#m A B
Y es así, así es y no hay nada que hacerle
E C#m A B
es así, así es, es así como sucede
E
Este amor

E C#m A
Es tan sencillo que no sé como explicar nuestro amor
B
nuestro dulce amor
E C#m
Y no se cuanto tiempo dure el amor
A B
pero hoy no hay nada mejor oohhh

A B
Todo fue como en un sueño
A B
en nuestro amor todo va sucediendo.

E C#m A B
Y es así, así es y no hay nada que hacerle
E C#m A B
es así, así es, es así como sucede
E C#m A B
Este amor, así es y no hay nada que hacerle
E C#m A B
es así, así es, es así como sucede
E
este amor.

Solo: E - C#m - A - B (x 2)
C

F Dm Bb C
Y es así, así es y no hay nada que hacerle (nada que hacerle)
F Dm Bb C
es así, así es, es así como sucede (como sucede)
F Dm Bb C
Este amor, así es y no hay nada que hacerle (nada que hacerle)
F Dm Bb C
es así, así es, es así como sucede (como sucede)
F
Este amor.

F Final ( x 4)

e|-------------1-|
B|------1---1----|
G|----2---2------|
D|---------------|
A|---------------|
E|--1------------|
avatar
J3$$!3
Moderador en práctica
Moderador en práctica

Femenino
Cantidad de envíos : 56
Edad : 28
Humor : Cansada
Barra de spam :
0 / 1000 / 100

Barra de participación :
100 / 100100 / 100

Medallitas :
Monedas : 96
Fecha de inscripción : 02/10/2008

Ver perfil de usuario

Volver arriba Ir abajo

Ver el tema anterior Ver el tema siguiente Volver arriba

- Temas similares

 
Permisos de este foro:
No puedes responder a temas en este foro.