RBD (Fuego)

Ver el tema anterior Ver el tema siguiente Ir abajo

RBD (Fuego)

Mensaje  J3$$!3 el Sáb Oct 04, 2008 1:41 am

INTRO:
|-----------1ªparte--------------|

e|----------------|---------------|----------------|---------------|
B|----------------|---------------|----------------|---------------|
G|----------------|---------------|-13--11--10--9--|-13--11--10--9-|
D|-13--11--10--9--|-13--11--10--9-|-11---9---8--7--|-11---9---8--7-|
A|-11---9---8--7--|-11---9---8--7-|----------------|---------------|
E|----------------|---------------|----------------|---------------|


|---------2ªparte----------------|

ESTROFAS:

Estos son los toques de la guitarra durante las estrofas:

El calor de mi cuerpo.......

e|------------------------|
B|------------------------|
G|---16--16--16--16----9--|
D|---14--14--14--14----7--|
A|------------------------|
E|------------------------|


Comienza por mis manos.....

e|------------------------|
B|------------------------|
G|---16--16--16--16----9--|
D|---14--14--14--14----7--|
A|------------------------|
E|------------------------|


ESTRIBILLO:

Y tengo miedo de perder el control....


e|------------------------|
B|------------------------|
G|--13--9--11--13---------|
A|--11--7---9--11---------|
A|------------------------|
E|------------------------|


Como el deseo que va arder en todo mi fuego....

2ªparte del INTRO:

e|---------------------|---------------------|
B|---------------------|---------------------|
G|-----13--11--10--9---|-----13--11--10--9---|
D|-----11---9---8--7---|-----11---9---8--7---|
A|---------------------|---------------------|
E|---------------------|---------------------|


Se vulve a repetir todo otra vez.
avatar
J3$$!3
Moderador en práctica
Moderador en práctica

Femenino
Cantidad de envíos : 56
Edad : 28
Humor : Cansada
Barra de spam :
0 / 1000 / 100

Barra de participación :
100 / 100100 / 100

Medallitas :
Monedas : 96
Fecha de inscripción : 02/10/2008

Ver perfil de usuario

Volver arriba Ir abajo

Ver el tema anterior Ver el tema siguiente Volver arriba

- Temas similares

 
Permisos de este foro:
No puedes responder a temas en este foro.