RBD (Enséñame)

Ver el tema anterior Ver el tema siguiente Ir abajo

RBD (Enséñame)

Mensaje  J3$$!3 el Sáb Oct 04, 2008 1:40 am

INTRO:

G D Bm A G D
e-------------------------------------------
B-10-8-10-7---7-7-8-7-5-3-2-------3-3-------
G---------------------------2-2-4-----2-4-2-
D-------------------------------------------
A-------------------------------------------
E-------------------------------------------
Bm A G Bm A G
e-------------------------------------------
B-------7-7-8-7-5-3-2-------3-3-5-7---5-7-3-
G---------------------2-2-4---------4-------
D-------------------------------------------
A-------------------------------------------
E-------------------------------------------

D A
Es dolor el saber que lo nuestro
Bm
se puede terminar porque simple
G
y sencillamente nunca he sabido actuar.

G D
Y sé que mueres por mi vives por mi
A
y nunca me has dejado atras
Bm
aunque sabes que a veces yo soy
G
sólo miedo.

D
Pero vives en mi junto a mi,
A
en mi interior
Bm
en este corazón confundido
G (dos compacés para abajo nomás)
por eso te pido por favor.

D [Bm - A]
Enséñame a quererte un poco más
[G - D]
y a sentir contigo,
[Bm - A]
el amor que tu me das,
[G - Bm] [A - G]
desvanece el frío quiero verte ya.
D [Bm - A]
Enséñame a quererte un poco más
[G - D]
y a vivir contigo,
[Bm - A]
que no aguanto la ansiedad,
[G - Bm] A G (marcarlo nomas)
de saberte mío quiero ir donde vas.

D A
Lejos de pensar que me estoy
Bm
haciendo mal tengo que reconocer
G
que todo ésto me ha salido mal.

D
Por eso voy a aprender, voy a vivir
A Bm
voy a abrazarte más y más y no quiero,
G
y no debo, y no puedo dejar de verte.


Porque vives en mi junto a mi,
A
en mi interior
Bm
en este corazón confundido
G (dos compacés para abajo nomás)
por eso te pido por favor.

D [Bm - A]
Enséñame a quererte un poco más
[G - D]
y a sentir contigo,
[Bm - A]
el amor que tu me das,
[G - Bm] [A - G]
desvanece el frío quiero verte ya.
D [Bm - A]
Enséñame a quererte un poco más
[G - D]
y a vivir contigo,
[Bm - A]
que no aguanto la ansiedad,
[G - Bm] A G (marcarlo nomas)
de saberte mío quiero ir donde vas.

D A
Es dolor el saber que lo nuestro
Bm
se puede terminar porque simple
G (dos compáces para abajo nomás)
y sencillamente nunca he sabido actuar.

D
Enséñame... (Esta parte esta dividida para dos guitarras)


Bm A
e----------------------
b------7-7-8-7-5-3-2---
g----------------------
d----------------------
a----------------------
e----------------------

[G - D]
Y a sentir contigo...

Bm A
e----------------------
b------7-7-8-7-5-3-2---
g----------------------
d----------------------
a----------------------
e----------------------

[G - Bm] [A - G]
desvanece el frío quiero verte ya.


e-------------------------------------------
B-10-8-10-7---7-7-8-7-5-3-2-------3-3-------
G---------------------------2-2-4-----2-4-2-
D-------------------------------------------
A-------------------------------------------
E-------------------------------------------

D [Bm - A]
Enséñame a quererte un poco más
[G - D]
y a vivir contigo...


e-------------------------------------------
B-------7-7-8-7-5-3-2-------3-3-5-7---5-7-3-
G---------------------2-2-4---------4-------
D-------------------------------------------
A-------------------------------------------
E-------------------------------------------

[Bm - A]
que no aguanto la ansiedad,
[G - Bm] A G (marcarlo nomas)
de saberte mio quiero ir donde vas.
avatar
J3$$!3
Moderador en práctica
Moderador en práctica

Femenino
Cantidad de envíos : 56
Edad : 28
Humor : Cansada
Barra de spam :
0 / 1000 / 100

Barra de participación :
100 / 100100 / 100

Medallitas :
Monedas : 96
Fecha de inscripción : 02/10/2008

Ver perfil de usuario

Volver arriba Ir abajo

Ver el tema anterior Ver el tema siguiente Volver arriba


 
Permisos de este foro:
No puedes responder a temas en este foro.