RBD (Dos Enamorados)

Ver el tema anterior Ver el tema siguiente Ir abajo

RBD (Dos Enamorados)

Mensaje  J3$$!3 el Sáb Oct 04, 2008 1:39 am

ACORDES:> C F G Am Em

C F C F

C F
E-0---------0----------1---------1-------------
B------1-------1-------------2------2----------
G----0---0---0---0---------3---3---3--3--------
D--2---------------------3---------------------
A-3--------------------------------------------
E----------------------1-----------------------
Mañana que amanezca le pediré


C F
E-0---------0----------1---------1-------------
B------1-------1-------------2------2----------
G----0---0---0---0---------3---3---3--3--------
D--2---------------------3---------------------
A-3--------------------------------------------
E----------------------1-----------------------
Mañana que la vea

C F
E-0---------0----------1---------1-------------
B------1-------1-------------2------2----------
G----0---0---0---0---------3---3---3--3--------
D--2---------------------3---------------------
A-3--------------------------------------------
E----------------------1-----------------------
Mañana que amanezca me pedirá

C F
E-0--------0----------1----------1-------------
B------1-------1-------------2------2----------
G----0---0---0---0---------3---3---3--3--------
D--2---------------------3---------------------
A-3--------------------------------------------
E---------------------1------------------------
Mañana que lo vea

G F
E-1--------1----------1----------1-------------
B------1-------1-------------2------2----------
G----0---0---0---0---------3---3---3--3--------
D--0---------------------3---------------------
A----------------------------------------------
E-3---------------------1----------------------
Y me pongo a temblar

G F
E-1--------1----------1----------1-------------
B------1-------1-------------2------2----------
G----0---0---0---0---------3---3---3--3--------
D--0---------------------3---------------------
A----------------------------------------------
E-3-------------------1------------------------
Me muero de las ganas de abrazarte


C G
Y el corazón es quien te llama
F
mi amor.


C
Si dices que si
G Am F
te protegeré con todo mi amor y mi corazón
C
Si digo que si
G Am G
te prometeré mi fidelidad y mi comprensión

Em
Y en este mundo tan raro,
Am
se van de la mano
F G
uniendo caminos, oh, oh, oh
C G F G
dos enamorados, oh, oh, oh, nara, nara, nara, nara, nara, na
C G F G
oh, oh, oh, nara, nara, nara, nara, nara, na

C F
Mañana que amanezca
C
no será igual
F C
mañana ella me espera.
F
Mañana que amanezca
C
no será igual
F C
mañana que lo vea.

G F
Y me pongo a rezar
G F
me muero de las ganas de besarte
C G
y la razón no entiende nada
F
corazón.

C
Si dices que si
G Am F
te protegeré con todo mi amor y mi corazón
C
Si digo que si
G Am F
te prometeré mi fidelidad y mi comprensión.


Em
Y en este mundo tan raro,
Am
se van de la mano
F G
uniendo caminos, oh, oh, oh
C G F G
dos enamorados, oh, oh, oh, nara, nara, nara, nara, nara, na
C G F G
oh, oh, oh, nara, nara, nara, nara, nara, na

Em
Y en este mundo tan raro,
Am
se van de la mano
F G
uniendo caminos, oh, oh, oh
C G F G
dos enamorados, oh, oh, oh, nara, nara, nara, nara, nara, na
C G F G
oh, oh, oh, nara, nara, nara, nara, nara, na
avatar
J3$$!3
Moderador en práctica
Moderador en práctica

Femenino
Cantidad de envíos : 56
Edad : 28
Humor : Cansada
Barra de spam :
0 / 1000 / 100

Barra de participación :
100 / 100100 / 100

Medallitas :
Monedas : 96
Fecha de inscripción : 02/10/2008

Ver perfil de usuario

Volver arriba Ir abajo

Ver el tema anterior Ver el tema siguiente Volver arriba

- Temas similares

 
Permisos de este foro:
No puedes responder a temas en este foro.