Rakim y Ken-Y (Un Sueño)

Ver el tema anterior Ver el tema siguiente Ir abajo

Rakim y Ken-Y (Un Sueño)

Mensaje  J3$$!3 el Sáb Oct 04, 2008 1:38 am

“Capo en el primer traste”

INTRO

-0-0---|-------
-----3-|-1-1-0-
-------|-------
-------|-------
-------|-------
-------|-------

RIFF (Esto suena en toda la música)

-0-0-3-1-0----|-0-0-3-1-0-----
----------3-1-|----------3-1--
--------------|---------------
--------------|---------------
--------------|---------------
--------------|---------------

------0-------|----0-1-0-0----
-1-1-1-3-1-0--|-1-3-----3-----
------------2-|---------------
--------------|---------------
--------------|---------------
--------------|---------------

C Dm
Las horas pasan y yo sigo aquí
F Am
Extrañándote, extrañándote
C Dm
Es como un vicio que me amarra a ti
F
Yo sigo deseándote

CORO

C Dm
Y cuando cae la noche yo
F
Imagino que estas conmigo
Am
No puedo vivir si no te tengo

C Dm
Tú me comienzas a besar
F
Te juro que no quiero despertar
Am
Y volver a saber la realidad
C
Que es solo un sueño
Dm
Que no te tengo
F
Que es solo un sueño
Am
Que no te tengo


C
Abrazando la almohada yo despierto
Dm
Soñando que te tengo, me duele porque no es cierto
F
My te juro que quisiera ser tu dueño
Am
Que conmigo amanezcas y solo te tengo en sueños
C
Tu no sabes cuanto te extraño me haces daño
Dm
Los días se hacen meses y los meses se hacen años
F
Como duele el no tenerte a ti perderte
Am
Y solamente en mis sueños tenerte

CORO

C Dm
Y cuando cae la noche yo
F
Imagino que estas conmigo
Am
No puedo vivir si no te tengo

C Dm
Tú me comienzas a besar
F
Te juro que no quiero despertar
Am
Y volver a saber la realidad
C
Que es solo un sueño
Dm
Que no te tengo
F
Que es solo un sueño
Am
Que no te tengo
avatar
J3$$!3
Moderador en práctica
Moderador en práctica

Femenino
Cantidad de envíos : 56
Edad : 28
Humor : Cansada
Barra de spam :
0 / 1000 / 100

Barra de participación :
100 / 100100 / 100

Medallitas :
Monedas : 96
Fecha de inscripción : 02/10/2008

Ver perfil de usuario

Volver arriba Ir abajo

Ver el tema anterior Ver el tema siguiente Volver arriba

- Temas similares

 
Permisos de este foro:
No puedes responder a temas en este foro.