Rakim y Ken-Y Si la ves

Ver el tema anterior Ver el tema siguiente Ir abajo

Rakim y Ken-Y Si la ves

Mensaje  J3$$!3 el Sáb Oct 04, 2008 1:37 am

Esta es la version balada de esta cancion

Acordes: Am Em F G

intro: (piano)

1|--17-16-17----------17-17-16-14h16p14-------|
2|-----------14-14-14-------------------17~---|
3|--------------------------------------------|
4|--------------------------------------------|
5|--------------------------------------------|
6|--------------------------------------------|

1|-----14-16-17-19--17-16-14--16-17-19--21------|
2|--17-------------------------------------21~--|
3|----------------------------------------------|
4|----------------------------------------------|
5|----------------------------------------------|
6|----------------------------------------------|

luego lo del bajo:

1|--------------------------------------------------------------|
2|--------------------------------------------------------------|
3|--------------------------------------------------------------|
4|--6h7-6-7---------7-7-6~--6-7-9-7-7-6-64-4-4-6-7-6-6-4h6-6~--|
5|----------4-4-4-4---------------------------------------------|
6|--------------------------------------------------------------|

Am Em F G

Si la ves dile que aun la quiero,
y que estoy desesperado por que vuelva junto a mi,
si la ves dile que no la he olvidado,
y que lloro como un niño desde que se fue de aqui...

Y dile que yo no soy igual,
que estoy muriendo y que me cuesta respirar,
dile que sin ella yo me he vuelto loco,
y que mi vida se va poco a poco,
díselo...

Un break (del saxo ok)

1|------------------------------------------------------------|
2|--10h12-12/14-14-12-10-12----10-12-12/14v---10-9-10-9-------|
3|--------------------------11--------------------------11-9--|
4|------------------------------------------------------------|
5|------------------------------------------------------------|
6|------------------------------------------------------------|

1|------------------------------------------------------------|
2|----------10/12-10-10h12p10-----10-12-12/14v---12v----------|
3|--9p7-6h7--------------------11-----------------------------|
4|------------------------------------------------------------|
5|------------------------------------------------------------|
6|------------------------------------------------------------|


Ya no me siento igual que ayer,
nena yo te kiero entender,
tu me dejaste solo aqui dime porque baby,
si la ves dile que la sigo esperando,
que siento bien en sus brazos,
que no puedo vivir sin estar junto a ti...

Dime que hago que no dejo de pensar,
en el calor de sus abrazos,
mi corazon esta en pedazos,
y si la ves dile que aun la quiero,
dile que estraño sus besos,
que no aguanto esta tormenta,
que me mata a fuego lento,
y que no, que no aguanto mas,
no la he dejado de extrañar,
dile que siempre la voy a esperar,
hasta el dia en que vuelva...

Si la ves dile que no la he olvidado,
y que lloro como un niño,
desde que se fue de aqui,
díselo...

Si la ves dile que aun la quiero,
y que siento que muero...
si la ves...

fin.
avatar
J3$$!3
Moderador en práctica
Moderador en práctica

Femenino
Cantidad de envíos : 56
Edad : 28
Humor : Cansada
Barra de spam :
0 / 1000 / 100

Barra de participación :
100 / 100100 / 100

Medallitas :
Monedas : 96
Fecha de inscripción : 02/10/2008

Ver perfil de usuario

Volver arriba Ir abajo

Ver el tema anterior Ver el tema siguiente Volver arriba


 
Permisos de este foro:
No puedes responder a temas en este foro.