Popeye el Marino

Ver el tema anterior Ver el tema siguiente Ir abajo

Popeye el Marino

Mensaje  J3$$!3 el Sáb Oct 04, 2008 1:33 am

E-----------------------------------------------------------------------
B-----------------------------------------------------------------------
G------------------------------------------0----------------------------
D------0--0--0--------0--x--x--0--2-----2-----2--0--x--x--0--2-----2----
A---2-----------3--2-----------------3--------------------------3-------
E-----------------------------------------------------------------------



E-----------------------------------------------------------------------
B-----------------------------------------------------------------------
G---0-------------------------------------------------------------------
D------4--2--0--2--0-----------0--2--0-----------x--x--0--2-------------
A---------------------2-----2-----------3--0-----------------3--3--3----
E------------------------3--------------------3-------------------------



E-----------------------------------------------------------------------
B-----------------------------------------------------------------------
G---------0--0----------------------------------------------------------
D---0--2--------0--0--------------0--0--2--2--2-----------0--0--0-------
A---------------------0--0--2--3-----------------0--2--3----------------
E------------------------------------------------------------------3----



E-----------------------------------------------------------------------
B-----------------------------------------------------------------------
G-----------------------------------------------------------------------
D-----------------------------------------------------------------------
A---0--2--3--3--3-------------------------------------------------------
E------------------2--2--3----------------------------------------------
avatar
J3$$!3
Moderador en práctica
Moderador en práctica

Femenino
Cantidad de envíos : 56
Edad : 28
Humor : Cansada
Barra de spam :
0 / 1000 / 100

Barra de participación :
100 / 100100 / 100

Medallitas :
Monedas : 96
Fecha de inscripción : 02/10/2008

Ver perfil de usuario

Volver arriba Ir abajo

Ver el tema anterior Ver el tema siguiente Volver arriba

- Temas similares

 
Permisos de este foro:
No puedes responder a temas en este foro.