Piratas del Caribe

Ver el tema anterior Ver el tema siguiente Ir abajo

Piratas del Caribe

Mensaje  J3$$!3 el Sáb Oct 04, 2008 1:17 am

e -------------------------------------------------
b -----------5-6-6-6-8-5-5-------------------------
g ---5-7-7-7---------------7-5-5-7----------------- x2
d -7-----------------------------------------------
a -------------------------------------------------
e -------------------------------------------------

e ------------------3-5-6-6-5-3-5-----------3-5-------------------
b -----------5-6-6------------------5-6-5-5-------5-6-5-5---------
g ---5-7-7-7----------------------7-------------7----------7-5-5-7
d -7--------------------------------------------------------------
a ----------------------------------------------------------------
e ----------------------------------------------------------------

e -5--6--5-5-5-5---3--3--5--3-3-3-----------------------------------
b -6--6--6-6-6-6---5--5--5--5-5-5--2--------------------------------
g -7--7--7-7-7-7---5--5--5--5-5-5--2--------------------------------
d -7--7--7-7-7-7---5--5--5--5-5-5--2--------------------------------
a ------------------------------------------------------------------
e ------------------------------------------------------------------

y se vuelve a repetir
avatar
J3$$!3
Moderador en práctica
Moderador en práctica

Femenino
Cantidad de envíos : 56
Edad : 28
Humor : Cansada
Barra de spam :
0 / 1000 / 100

Barra de participación :
100 / 100100 / 100

Medallitas :
Monedas : 96
Fecha de inscripción : 02/10/2008

Ver perfil de usuario

Volver arriba Ir abajo

Ver el tema anterior Ver el tema siguiente Volver arriba

- Temas similares

 
Permisos de este foro:
No puedes responder a temas en este foro.