Helloween (pelicula)

Ver el tema anterior Ver el tema siguiente Ir abajo

Helloween (pelicula)

Mensaje  J3$$!3 el Sáb Oct 04, 2008 1:08 am

3x
E--11-------11------11--------11-----12------
B------9-9------9-9-----9-9-------9-------9--
G--------------------------------------------
D--------------------------------------------
A--------------------------------------------
E--------------------------------------------


2X
E--9-------9-------9------9-----10-----
B-----7-7-----7-7-----7-7----7------7--
G--------------------------------------
D--------------------------------------
A--------------------------------------
E--------------------------------------

ESO ES TODO
avatar
J3$$!3
Moderador en práctica
Moderador en práctica

Femenino
Cantidad de envíos : 56
Edad : 28
Humor : Cansada
Barra de spam :
0 / 1000 / 100

Barra de participación :
100 / 100100 / 100

Medallitas :
Monedas : 96
Fecha de inscripción : 02/10/2008

Ver perfil de usuario

Volver arriba Ir abajo

Ver el tema anterior Ver el tema siguiente Volver arriba

- Temas similares

 
Permisos de este foro:
No puedes responder a temas en este foro.