Harry Potter

Ver el tema anterior Ver el tema siguiente Ir abajo

Harry Potter

Mensaje  J3$$!3 el Sáb Oct 04, 2008 1:07 am

(Es un entretenido arpegio en Mi menor)

E-------------7----------------------------
B-------8-7-----10---7--------8-7---6------
G-----9-----9---------------9-----7--------
D---9---------------------------------9----
A------------------------------------------
E------------------------------------------


E-------------7-10--9-8---8--7-6-----------
B-------8-7-------------9--------7--8------
G-----9-----9-------------------------9----
D---9--------------------------------------
A------------------------------------------
E------------------------------------------


E-----7---7---8--7-6--------7-6------7----
B---8---8---8----------7-8----------------
G-----------------------------------------
D-------------------------------8--9------
A-----------------------------------------
E-----------------------------------------


E-----7---7----10--9-8---8--7-6-----------
B---8---8---8----------9--------7--8------
G------------------------------------9----
D-----------------------------------------
A-----------------------------------------
E-----------------------------------------

------------------------ FIN ------------------------
_______________________
| |
| C L A V E | CUERDAS de la GUITARRA:
| Universal - Americana | E A D G B E
| | | | | | | |
| Do =============== C | Mi La Re Sol Si Mi
| Re =============== D | Grave Agudo
| Mi =============== E |
| Fa =============== F |
| Sol =============== G |
| La =============== A |
| Si =============== B |
|_______________________|
avatar
J3$$!3
Moderador en práctica
Moderador en práctica

Femenino
Cantidad de envíos : 56
Edad : 28
Humor : Cansada
Barra de spam :
0 / 1000 / 100

Barra de participación :
100 / 100100 / 100

Medallitas :
Monedas : 96
Fecha de inscripción : 02/10/2008

Ver perfil de usuario

Volver arriba Ir abajo

Ver el tema anterior Ver el tema siguiente Volver arriba

- Temas similares

 
Permisos de este foro:
No puedes responder a temas en este foro.