Kudai (Tu)

Ver el tema anterior Ver el tema siguiente Ir abajo

Kudai (Tu)

Mensaje  J3$$!3 el Sáb Oct 04, 2008 1:00 am

ACORDES

D Bm F#m G
e-- 2 - 2 - 2 – 3
b-- 3 - 3 - 2 - 0
G-- 2 - 4 - 2 - 0
D-- 0 - 4 - 4 - 0
A-- x - 2 – 4 - 2
E-- x - 2 - 2 - 3

Kudai - Tu

Intro:

e--2---2-5----2----3---3-2----0----
b----3------3---3—---3------3---3--
G----------------------------------
D----------------------------------
A----------------------------------
E----------------------------------

e---0---0---3---2---7---7---5---3----2----
b-----3---3---3---3---------------2--3----
G---------------------7---7---7-----------
D-----------------------------------------
A-----------------------------------------
E-----------------------------------------

D Bm
No puedo olvidarte
F#m
No puedo no pensar en ti
G D
Tu voz, tus ojos, tu mirar, tu sonrisa que no está

Bm F#m
Cambiaría por tenerte, conmigo un segundo más
G D
Daría todo por saber, que también piensas en mi
F#m
Y aunque el viento te alejó
Bm G
Y tu cara ya no esté, y me quede frente el mar
D
(tan solo como un pez)
F#m Bm
Ojalá que al despertar, trates de pensar en mi
G
Porque yo no te olvidé

Y es que......

D F#m
Tú, eres todo para mi
Bm
Todo lo que tengo yo
G
Y sin ti no seguiré viviendo

D F#m
Tú, si es que puedes entender
Bm
Yo jamás te dejaré
G
Aunque traten de alejarte de mi


e--2-------2----5-----------2-------
b------3---------------3--------3—--
G-----------------------------------
Si estoy loco, ?qué me importa?

e--3---------3--2------0------
b-------3----------3-------3--
G-----------------------------
De alguna forma voy a hacer

e-0-----0-----3---2----7----7-----
b----3-----3----3---3-------------
G-------------------------7----7--
Que me devuelvan de una vez

e--5----------3---------2--
b-------------------2------
G--------7-----------------
Una tarde junto a ti

e------2--5------2-----3-----3--2-----0-----
b---3---------3-----3-----3--------3-----3--
G-------------------------------------------
Una risa, una foto, una película después

e-0-----0-----3---2----7-----7-----5------3-------2--
b----3-----3----3---3-------------------------2---3--
G-------------------------7-----7-----7--------------
Y una mañana te diré, como duele el corazón

D F#m Bm
De sólo pensar que estás escondida en un rincón
G
Preguntándote ?por qué, por qué, por qué?

D F#m
Tú, eres todo para mi
Bm
Todo lo que tengo yo
G
Y sin ti no seguiré viviendo

D F#m
Tú, si es que puedes entender
Bm
Yo jamás te dejaré
G
Aunque traten de alejarte de mi

D F#m
Tú, eres todo para mi
Bm
Todo lo que tengo yo
G
Y sin ti no seguiré viviendo

D F#m
Tú, si es que puedes entender
Bm
Yo jamás te dejaré
G
Aunque traten de alejarte de mi

D F#m Bm G
Yo no te olvido, yo no te oldivo, yo no me olvido de ti....

D F#m
Tú, eres todo para mi
G
Todo lo que tengo yo
D
Y sin ti no seguiré viviendo Tú......
avatar
J3$$!3
Moderador en práctica
Moderador en práctica

Femenino
Cantidad de envíos : 56
Edad : 28
Humor : Cansada
Barra de spam :
0 / 1000 / 100

Barra de participación :
100 / 100100 / 100

Medallitas :
Monedas : 96
Fecha de inscripción : 02/10/2008

Ver perfil de usuario

Volver arriba Ir abajo

Ver el tema anterior Ver el tema siguiente Volver arriba

- Temas similares

 
Permisos de este foro:
No puedes responder a temas en este foro.