Jarabe de Palo {La Flaca} (versión acústica)

Ver el tema anterior Ver el tema siguiente Ir abajo

Jarabe de Palo {La Flaca} (versión acústica)

Mensaje  J3$$!3 el Sáb Oct 04, 2008 12:54 am

(Solo voz)

En la vida conocí...... ....que sin palabras



Fig 1.......

Fa M(-5)? Sol M Lam Lam/sol
|-------------------|---------------------|----------------------|---------------------|
|-----------0-------|------------0--------|---------1---1-0------|------1---1-0--------|
|-------2-------2---|--------0-------0----|-----------------2----|---------------2-----|
|-----3---3---3---3-|------0---0---0---0--|-------2---2-------2--|----2---2--------2---|
|-------------------|---------------------|---0------------------|---------------------|
|-1-----------------|---3-----------------|----------------------|--3------------------|
hablan que sin palabras hablan...


Lam/Fa# MiM/Sol# Lam Lam/sol
|-------------------|----------0----------|----------------------|----------------------|
|------1----1-0-----|---------------------|------1----1-0--------|-------1----1-0-------|
|---------------2---|------4--------4-----|---------------2------|----------------2-----|
|----2---2--------2-|----2---2----2---2---|----2---2--------2----|-----2---2--------2---|
|-------------------|---------------------|--0-------------------|----------------------|
|-2-----------------|--4----------------4-|----------------------|---3------------------|
la Flaca duerme de dia dice que asi el hambre


Lam/Fa# DoM SolM Lam Lam/sol
|-------------------|---------------------|----------------------|----------------------|
|------1----1-0-----|---------------------|------1----1-0--------|-------1----1-0-------|
|---------------2---|------0--------------|---------------2------|----------------2-----|
|----2---2--------2-|----2---2----0----0--|----2---2--------2----|-----2---2--------2---|
|-------------------|-3--------------2----|--0-------------------|----------------------|
|-2-----------------|----------3----------|----------------------|---3------------------|
engaña y cuando la noche baja a bailar a la tasca y bailar y bailar y tomar y tomar



Lam/Fa# MiM/Sol# FaM(-5) SolM
|-------------------|----------0----------|----------------------|----------------------|
|------1----1-0-----|---------------------|----------0-----------|----------------------|
|---------------2---|------4--------4-----|------2--------2------|-------0----2/4\2-0---|
|----2---2--------2-|----2---2----2---2---|----3---3---3----3----|-----0---0------------|
|-------------------|---------------------|----------------------|----------------------|
|-2-----------------|--4------------------|--1-------------------|---3------------------|

una cerveza tras otra pero ella nunca engorda , pero ella nunca engorda



.... Final Fig 1 Fig 2........


Lam ReM Famaj7 SolM
|----------0--------|---------2--3p2------||--------0-------------|--------3-------------|
|--------1--1-------|-------3----3---3----||------1---1-----------|------3---3-----------|
|------2------2-----|-----2------------2--||----2-------2----2----|----0-------0-----0---|
|----2----------2---|--0------------------||--3------------3------|----------------------|
|-0---------------0-|---------------------||----------------------|----------------------|
|-------------------|---------------------||----------------------|--3------------3------|
por un beso de la Flaca daría lo que



Final Fig 2 (Tocar dos veces y depués....)

Lam ReM Famaj7
|----------0--------|-----------3p2-------|----------------------|--------0-------------|
|------1-----1------|------3----3---3-----|---Repetir Fig 2------|------1---1-----------|
|----2---2-----2----|----2---2--------2---|----------------------|----2-------2---2-----|
|----------------2--|-0-------------------|----------------------|--3-----------3-------|
|--0----------------|---------------------|----------------------|----------------------|
|-------------------|---------------------|----------------------|----------------------|
fuera, por un beso de ella aunque solo uno fuera.....




SolM Lam MiM
|---------3---------|-----------0---------|----------------------|---------------------|
|-----3---------3---|-------1-----1----1--|--9-9---9-9-----------|---------------------|
|---0---0----0----0-|-----2---2-----2-----|--9-9---9-9-----------|---------------------|
|-------------------|---------------------|--9-9---9-9-----------|---------------------|
|-------------------|--0------------------|----------------------|---------------------|
|-3-----------------|---------------------|----------------------|---------------------|
....aunque solo uno fuera.........



La segunda estrofa ( Moje mis sabanas blancas.....) y el estribillo se repite de la misma forma
con solo pequeñas variaciones. Para entender mejor los tiempos, y los ritmos asi como la estructura
completa de la canción, sugiero que escuches el CD.
avatar
J3$$!3
Moderador en práctica
Moderador en práctica

Femenino
Cantidad de envíos : 56
Edad : 28
Humor : Cansada
Barra de spam :
0 / 1000 / 100

Barra de participación :
100 / 100100 / 100

Medallitas :
Monedas : 96
Fecha de inscripción : 02/10/2008

Ver perfil de usuario

Volver arriba Ir abajo

Ver el tema anterior Ver el tema siguiente Volver arriba

- Temas similares

 
Permisos de este foro:
No puedes responder a temas en este foro.