Reik (Noviembre sin tí)

Ver el tema anterior Ver el tema siguiente Ir abajo

Reik (Noviembre sin tí)

Mensaje  J3$$!3 el Vie Oct 03, 2008 11:53 pm

e-1-0----------0----1-0---------0---
B-----3-1--1-3---3------3-1-1-3---3-
G-----------------------------------
D-----------------------------------
A-----------------------------------
E-----------------------------------

e---2-2-2-2-----0-0-2-0-----------0-----------------------------------
B-----------3--3----------3-3-3-3---3-2-------------------------------
G-2---------------------2----------------2-4-4-4-4-0--0-2-2-2-2-0-2-2-
D---------------------------------------------------------------------
A---------------------------------------------------------------------
E---------------------------------------------------------------------

La tarde se aleja el cielo esta gris la noche aparece sin ti callado en
la playa te lloro en silencio otra vez

e---2-2-2-2-----0-0-2-0-----------0-----------------------------------
B-----------3--3----------3-3-3-3---3-2-------------------------------
G-2---------------------2----------------2-4-4-4-4-0--0-2-2-2-2-0-2-2-
D---------------------------------------------------------------------
A---------------------------------------------------------------------
E---------------------------------------------------------------------

Me ahoga esta pena no puedo vivir las olas no me hablan de ti sentado en
la arena escribo tu nombre otra vez

e-----0-1------0-1-0---------0-0-0-0-------0-0-0---
B-1-3-----3--3-------3-1-1-3---------3-1-3-------3-
G--------------------------------------------------
D--------------------------------------------------
A--------------------------------------------------
E--------------------------------------------------

Por que te extraño desde aquel noviembre cuando soñamos juntos a querernos
siempre

e-0-1------0-1s0-0---------0-0-0-0-------0-0-0---
B-----3--3---------3-1-1-3---------3-1-3-------3-
G------------------------------------------------
D------------------------------------------------
A------------------------------------------------
E------------------------------------------------

Me duele este frio noviembre cuando las hojas caen a morir por siempre

e---0-0-0-0-----------3s5s3-----------------------
B-----------1-1-3-3-3---------1-1-1-1-1-3-1-0---0-
G-0-------------------------0-----------------2---
D-------------------------------------------------
A-------------------------------------------------
E-------------------------------------------------

Noviembre sin ti es sentir q la lluvia me dice llorando que todo acabo

e---0-0-0-0-----------3s5s3------------------------------------------
B-----------1-1-3-3-3---------1-1-1-1-1-3-1-0---0--------------------
G-0-------------------------0-----------------2---0-2-2--2s4-2-0-2-2-
D--------------------------------------------------------------------
A--------------------------------------------------------------------
E--------------------------------------------------------------------

Noviembre sin ti es pedirle a la luna que brille en la noche de mi corazon
otra vez ... otra vez

e-----0-1-0----------0----1-0---------0-----8-7-------------
B-1-3-------3-1--1-3---3------3-1-1-3---3-------8-----------
G-------------------------------------------------7-5s4-0---
D---------------------------------------------------------0-
A-----------------------------------------------------------
E-----------------------------------------------------------
Esta es la parte de la guitarra
electrica

e---2-2-2-2-----0-0-2-0-----------0-----------------------------------
B-----------3--3----------3-3-3-3---3-2-------------------------------
G-2---------------------2----------------2-4-4-4-4-0--0-2-2-2-2-0-2-2-
D---------------------------------------------------------------------
A---------------------------------------------------------------------
E---------------------------------------------------------------------

Quisiera decirte que quiero volver tu nombre va escrito en mi piel ya es
de madrugada te sigo esperando otra vez

e-----0-1------0-1-0---------0-0-0-0-------0-0-0---
B-1-3-----3--3-------3-1-1-3---------3-1-3-------3-
G--------------------------------------------------
D--------------------------------------------------
A--------------------------------------------------
E--------------------------------------------------

Por que te extraño desde aquel noviembre cuando soñamos juntos a querernos
siempre

e-0-1------0-1s0-0---------0-0-0-0-------0-0-0---
B-----3--3---------3-1-1-3---------3-1-3-------3-
G------------------------------------------------
D------------------------------------------------
A------------------------------------------------
E------------------------------------------------

Me duele este frio noviembre cuando las hojas caen a morir por siempre

e---0-0-0-0-----------3s5s3-----------------------
B-----------1-1-3-3-3---------1-1-1-1-1-3-1-0---0-
G-0-------------------------0-----------------2---
D-------------------------------------------------
A-------------------------------------------------
E-------------------------------------------------

Noviembre sin ti es sentir q la lluvia me dice llorando que todo acabo

e---0-0-0-0-----------3s5s3------------------------------------------
B-----------1-1-3-3-3---------1-1-1-1-1-3-1-0---0--------------------
G-0-------------------------0-----------------2---0-2-2--2s4-2-0-2-2-
D--------------------------------------------------------------------
A--------------------------------------------------------------------
E--------------------------------------------------------------------

Noviembre sin ti es pedirle a la luna que brille en la noche de mi corazon
otra vez ... otra vez

e---0-0-0-0-----------3s5s3-----------------------
B-----------1-1-3-3-3---------1-1-1-1-1-3-1-0---0-
G-0-------------------------0-----------------2---
D-------------------------------------------------
A-------------------------------------------------
E-------------------------------------------------

Noviembre sin ti es sentir q la lluvia me dice llorando que todo acabo

e---0-0-0-0-----------3s5s3------------------------------------------
B-----------1-1-3-3-3---------1-1-1-1-1-3-1-0---0--------------------
G-0-------------------------0-----------------2---0-2-2--2s4-2-0-2-2-
D--------------------------------------------------------------------
A--------------------------------------------------------------------
E--------------------------------------------------------------------

Noviembre sin ti es pedirle a la luna que brille en la noche de mi corazon
otra vez ... otra vez

e-----0-1-0----------0----1-0---------0---------
B-1-3-------3-1--1-3---3------3-1-1-3---3-1-0-1-
G-----------------------------------------------
D-----------------------------------------------
A-----------------------------------------------
E-----------------------------------------------
avatar
J3$$!3
Moderador en práctica
Moderador en práctica

Femenino
Cantidad de envíos : 56
Edad : 28
Humor : Cansada
Barra de spam :
0 / 1000 / 100

Barra de participación :
100 / 100100 / 100

Medallitas :
Monedas : 96
Fecha de inscripción : 02/10/2008

Ver perfil de usuario

Volver arriba Ir abajo

Ver el tema anterior Ver el tema siguiente Volver arriba

- Temas similares

 
Permisos de este foro:
No puedes responder a temas en este foro.