Maná (El Rey)

Ver el tema anterior Ver el tema siguiente Ir abajo

Maná (El Rey)

Mensaje  J3$$!3 el Vie Oct 03, 2008 11:12 pm

E-0--0--3--3--0--3--3--0--3--0------------------------
B-2--2--5--5--2--5--5--2--5--2------------------------
G-----------------------------------------------------
D-----------------------------------------------------
A-----------------------------------------------------
E-----------------------------------------------------

E-0--0--3--3--0--3--3--0--0--------0--0-----5--3--2---
B-2--2--5--5--2--5--5--2--0--2--2--0--2-----7--5--3---
G----------------------------2--2--------2------------
D----------------------------------------2------------
A-----------------------------------------------------
E-----------------------------------------------------

D
Yo se bien que estoy afuera

pero el dia en que yo me muera
A7
se que tengras que llorar

llorar y llorar llorar y llorar


diras que no me quisiste

pero vas a estar muy trizte
D
y asi te ves a quedar

G
con dinero y sin dinero

ago siempre lo que quiero
A7
y mi palabra es la ley


no tengo trono ni reyna

ni nadien que me comprenda
D
pero sigo siendo er rey


D
una piedra en mi camino

me enseño que mi destino
A7
era rodar y rodar

rodar y rodar rodar y rodar


despues me dijo un arriero

que no hay que llegar primero
D
pero hay que saber llegar


G
con dinero y sin dinero

ago siempre lo que quiero
A7
y mi palabra es la ley


no tengo trono ni reyna

ni nadien que me comprenda
D
pero sigo siendo er rey
avatar
J3$$!3
Moderador en práctica
Moderador en práctica

Femenino
Cantidad de envíos : 56
Edad : 28
Humor : Cansada
Barra de spam :
0 / 1000 / 100

Barra de participación :
100 / 100100 / 100

Medallitas :
Monedas : 96
Fecha de inscripción : 02/10/2008

Ver perfil de usuario

Volver arriba Ir abajo

Ver el tema anterior Ver el tema siguiente Volver arriba

- Temas similares

 
Permisos de este foro:
No puedes responder a temas en este foro.