Maná (Arde el cielo)

Ver el tema anterior Ver el tema siguiente Ir abajo

Maná (Arde el cielo)

Mensaje  J3$$!3 el Jue Oct 02, 2008 7:36 pm

INTRODUCCION:

Esta es la segunda guitarra
v v ^ ^ v ^ V V ^ ^ V ^
E|------|----------|-6--6--|-10-10-10-10-
A|-3--3-|--6-6-6-6-|-8--8--|-10-10-10-10-
D|-5--5-|--6-6-6-6-|-8--8--|------------- x3
G|-5--5-|----------|-------|-------------
B|------|----------|-------|-------------
e|------|----------|-------|-------------

*ESTA ES LA PRIMERA GUITARRA
v v ^ ^ v ^ ^ ^ ^ ^ v ^
E|--------|-------------|-6--6----|-------------
A|-3--3---|-------------|-8--8----|-------------
D|-5--5---|-------------|-8--8----|-------------
G|-5--5---|-------------|---------|------------- x3
B|--------|-11-11-11-11-|---------|11-11-11-11--
e|--------|-11-11-11-11-|---------|10-10-10-10--

*ESTA PARTE VA DESPUES DE HABER HECHO LOS 3 RASGUEOS DE ARRIBA
ESTO LO ASEN
v v ^ ^ v ^
E|--------|----------|
A|-3--3---|-6-6-6-6--|
D|-5--5---|-6-6-6-6--|
G|-5--5---|----------|
B|--------|----------|
e|--------|----------|
PRIMERA GUITARRA
v v ^ ^ v ^ v ^ v v v v v v
E|--------|-------------|-6-6-6-6---|-4-3-4----------
A|-3-3----|-------------|-8-8-8-8---|-6-5-6--3--------
D|-5-5----|-------------|-8-8-8-8---|-6-5-6--3--------
G|-5-5----|-------------|-----------|--------5-----
B|--------|-11-11-11-11-|-----------|-------------
e|--------|-11-11-11-11-|-----------|-------------


LETRA:
SEGUNDA GUITARRA
C#m A E
Nos fue tragando la rutina
B C#m A E B
Fue llenando de vacios
C#m A E
Fuimos ahogando la palabra
B C#m A E B
Y explotando en puros líos

C#m E B
Te deseo suerte amor
F#m C#m A E B
Ya me voy al olvido
C#m E B
Solo le pido a dios,
F#m C#m A E B
Darte alivio

00:40 min*
PRIMERA GUITARRA

E|------|----------|--------------------
A|------|----------|--------------------
D|------|----------|--------------------
G|---9---8---8---10|---5---5---7---7----X2
B|--8---6---6---9--|--4---4---6---6-----
e|-8---6---6---8---|-3---4---6---6------

00:59 min
E|-----------|----------|-------|-------------
A|-----------|----------|-------|-------------
D|-----------|----------|-------|-------------
G|-----------|----------|-------|-------------
B|-----------|----------|-------|-------------
e|-4--4-11-6-|----------|-------|-------------

Coro.
SEGUNDA GUITARRA
C#m A
Arde
B G#m C#m A
Arde el cielo y el dolor
B G#m
Arde mi espiritu
C#m A B
Arde el amor y la luz
G#m C#m A B G#m C#m
Arde el cielo amor





en el coro puedes tocar lo que esta arriba o lo de la intro-
duccion pero con (primera y segunda guitarra).

segunda guitarra
v v ^ ^ v ^ V V ^ ^ V ^
E|------|----------|-6--6--|-10-10-10-10-
A|-3--3-|--6-6-6-6-|-8--8--|-10-10-10-10-
D|-5--5-|--6-6-6-6-|-8--8--|------------- x3
G|-5--5-|----------|-------|-------------
B|------|----------|-------|-------------
e|------|----------|-------|-------------

PRIMERA GUITARRA
v v ^ ^ v ^ ^ ^ ^ ^ v ^
E|--------|-------------|-6--6----|-------------
A|-3--3---|-------------|-8--8----|-------------
D|-5--5---|-------------|-8--8----|-------------
G|-5--5---|-------------|---------|------------- x3
B|--------|-11-11-11-11-|---------|11-11-11-11--
e|--------|-11-11-11-11-|---------|10-10-10-10--

*ESTA PARTE VA DESPUES DE HABER HECHO LOS 3 RASGUEOS DE ARRIBA
ESTO LO ASEN
SEGUNDA GUITARRA
v v ^ ^ v ^
E|--------|----------|
A|-3--3---|-6-6-6-6--|
D|-5--5---|-6-6-6-6--|
G|-5--5---|----------|
B|--------|----------|
e|--------|----------|
PRIMERA GUITARRA
v v ^ ^ v ^ v ^ v v v v v v
E|--------|-------------|-6-6-6-6---|-4-3-4----------
A|-3-3----|-------------|-8-8-8-8---|-6-5-6--3--------
D|-5-5----|-------------|-8-8-8-8---|-6-5-6--3--------
G|-5-5----|-------------|-----------|--------5-----
B|--------|-11-11-11-11-|-----------|-------------
e|--------|-11-11-11-11-|-----------|-------------

01:25 min*
LETRA
C#m A
Salio el alcohol
E
Salio el demonio
B C#m A E B
Un infierno, un manicomio
C#m A E
Gritos, violencia, platos rotos
B C#m A E B
Como ciega la demencia


01:25 min*

E|------------|
A|------------|
D|------------|X4
G|--5--5--7--7|
B|-4--4--6--6-|
e|3--4--6--6--|

01:44 min*
C#m E B
Solo yo te pido amor
F#m C#m A E B
Que nunca te abandones
C#m E B
Solo le pido a dios,
F#m C#m A E B
Darte alivio

01:44 min*

E|------|----------|--------------------
A|------|----------|--------------------
D|------|----------|--------------------
G|---9---8---8---10|---5---5---7---7----X2
B|--8---6---6---9--|--4---4---6---6-----
e|-8---6---6---8---|-3---4---6---6------
02:03 min*
G|-----------|----------|-------|-------------
B|-----------|----------|-------|-------------
e|-4--4-11-6-|----------|-------|-------------


Coro.
SEGUNDA GUITARRA
C#m A
Arde
B G#m C#m A
Arde el cielo y el dolor
B G#m
Arde mi espiritu
C#m A B
Arde el amor y la luz
G#m C#m A B G#m C#m
Arde el cielo amor

C#m A B G#m C#m A
Sangra, sangra el cielo y la luz
B G#m
Sangra mí espiritu
C#m A B
Arde el amor y la luz
G#m C#m A B G#m
Arde el cielo amor


*recuerden que en el coro pueden acer la introduccion
segunda guitarra
v v ^ ^ v ^ V V ^ ^ V ^
E|------|----------|-6--6--|-10-10-10-10-
A|-3--3-|--6-6-6-6-|-8--8--|-10-10-10-10-
D|-5--5-|--6-6-6-6-|-8--8--|------------- x3
G|-5--5-|----------|-------|-------------
B|------|----------|-------|-------------
e|------|----------|-------|-------------

PRIMERA GUITARRA
v v ^ ^ v ^ ^ ^ ^ ^ v ^
E|--------|-------------|-6--6----|-------------
A|-3--3---|-------------|-8--8----|-------------
D|-5--5---|-------------|-8--8----|-------------
G|-5--5---|-------------|---------|------------- x3
B|--------|-11-11-11-11-|---------|11-11-11-11--
e|--------|-11-11-11-11-|---------|10-10-10-10--

SEGUNDA GUITARRA
v v ^ ^ v ^
E|--------|----------|
A|-3--3---|-6-6-6-6--|
D|-5--5---|-6-6-6-6--|
G|-5--5---|----------|
B|--------|----------|
e|--------|----------|
PRIMERA GUITARRA
v v ^ ^ v ^ v ^ v v v v v v
E|--------|-------------|-6-6-6-6---|-4-3-4----------
A|-3-3----|-------------|-8-8-8-8---|-6-5-6----------
D|-5-5----|-------------|-8-8-8-8---|-6-5-6----------
G|-5-5----|-------------|-----------|-------------
B|--------|-11-11-11-11-|-----------|-------------
e|--------|-11-11-11-11-|-----------|-------------

*SOLO
02:46 min*
E|----------------------------------------
A|-3/5-5-5-5--8-8-8-------10-10-10-10-10--
D|-3/5-5-5-5--8-8-8-10-10-10-10-10-10-10--x4
G|------------------10-10-----------------
B|----------------------------------------
e|----------------------------------------
el solo se acompaña con el toque de arriba(por eso se repite
4 veces)

al terminar el solo sigue esto
03:05 min*
E|-8---8-8-10-11---------|-------------
A|-8---8-8-10-11---------|-------------
D|-----------------------|-------------
G|-----------------------|-------------
B|-----------------------|-------------
e|-----------------------|-------------

despues

*esto se toca con la introduccion
C#m A
Arde
B G#m C#m A
Arde el cielo y el dolor
B G#m
Arde mi espiritu
C#m A B
Arde el amor y la luz
G#m C#m A B G#m C#m
Arde el cielo amor

C#m A B G#m C#m A
Sangra, sangra el cielo y la luz
B G#m
Sangra mí espiritu
C#m A B
Arde el amor y la luz
G#m C#m A B G#m
Arde el cielo amor

segunda guitarra
v v ^ ^ v ^ V V ^ ^ V ^
E|------|----------|-6--6--|-10-10-10-10-
A|-3--3-|--6-6-6-6-|-8--8--|-10-10-10-10-
D|-5--5-|--6-6-6-6-|-8--8--|------------- x5
G|-5--5-|----------|-------|-------------
B|------|----------|-------|-------------
e|------|----------|-------|-------------

PRIMERA GUITARRA
v v ^ ^ v ^ ^ ^ ^ ^ v ^
E|--------|-------------|-6--6----|-------------
A|-3--3---|-------------|-8--8----|-------------
D|-5--5---|-------------|-8--8----|-------------
G|-5--5---|-------------|---------|------------- x5
B|--------|-11-11-11-11-|---------|11-11-11-11--
e|--------|-11-11-11-11-|---------|10-10-10-10--

*ESTA PARTE VA DESPUES DE HABER HECHO LOS 5 RASGUEOS DE ARRIBA
ESTO LO ASEN
SEGUNDA GUITARRA
v v ^ ^ v ^
E|--------|----------|
A|-3--3---|-6-6-6-6--|
D|-5--5---|-6-6-6-6--|
G|-5--5---|----------|
B|--------|----------|
e|--------|----------|
PRIMERA GUITARRA
v v ^ ^ v ^ v ^ v v v v v v
E|--------|-------------|-6-6-6-6---|-4-3-4----------
A|-3-3----|-------------|-8-8-8-8---|-6-5-6--3--------
D|-5-5----|-------------|-8-8-8-8---|-6-5-6--3--------
G|-5-5----|-------------|-----------|--------5-----
B|--------|-11-11-11-11-|-----------|-------------
e|--------|-11-11-11-11-|-----------|-------------

y se buelve a repetir la itroduccion pero aora solo 3 veces
03:55
B G#m C#m
Trozos del cielo en ardor
B G#m C#m
Trozos del cielo en ardor
B G#m C#m A B G#m
Se esta quemando el cielo yaaa....

y te lo repito puedes tocar este coro con la introduccion
(arriba)
E|----------------------------------------------------
A|----------------------------------------------------
D|----------------------------------------------------
G|-5---5-------3---3---3---5---5---------------------5-x6
B|---4-----4-4---4---6---4---4-----4-4---3-4-3---3-4---
e|-------6-----------------------6-------------3-------

segunda guitarra
v v ^ ^ v ^ V V ^ ^ V ^
E|------|----------|-6--6--|-10-10-10-10-
A|-3--3-|--6-6-6-6-|-8--8--|-10-10-10-10-
D|-5--5-|--6-6-6-6-|-8--8--|-------------
G|-5--5-|----------|-------|-------------
B|------|----------|-------|-------------
e|------|----------|-------|-------------

PRIMERA GUITARRA
v v ^ ^ v ^ ^ ^ ^ ^ v ^
E|--------|-------------|-6--6----|-------------
A|-3--3---|-------------|-8--8----|-------------
D|-5--5---|-------------|-8--8----|-------------
G|-5--5---|-------------|---------|-------------
B|--------|-11-11-11-11-|---------|11-11-11-11--
e|--------|-11-11-11-11-|---------|10-10-10-10--

SEGUNDA GUITARRA
v v ^ ^ v ^
E|--------|----------|
A|-3--3---|-6-6-6-6--|
D|-5--5---|-6-6-6-6--|
G|-5--5---|----------|
B|--------|----------|
e|--------|----------|
PRIMERA GUITARRA
v v ^ ^ v ^ v ^ v v v v v v
E|--------|-------------|-6-6-6-6---|-4-3-4----------
A|-3-3----|-------------|-8-8-8-8---|-6-5-6--3--------
D|-5-5----|-------------|-8-8-8-8---|-6-5-6--3--------
G|-5-5----|-------------|-----------|--------5-----
B|--------|-11-11-11-11-|-----------|-------------
e|--------|-11-11-11-11-|-----------|-------------
la intorduccion se repite asta que termine la cancion
esto
avatar
J3$$!3
Moderador en práctica
Moderador en práctica

Femenino
Cantidad de envíos : 56
Edad : 28
Humor : Cansada
Barra de spam :
0 / 1000 / 100

Barra de participación :
100 / 100100 / 100

Medallitas :
Monedas : 96
Fecha de inscripción : 02/10/2008

Ver perfil de usuario

Volver arriba Ir abajo

Re: Maná (Arde el cielo)

Mensaje  leandrojulian el Jue Oct 02, 2008 8:00 pm

Gracias por la partitura, aunque yo no tengo guitarra xdd

Seguro a los que tienen guitarra les gustará la partitura Wink

Ah, me acordé, te daré 5 monedas mas, y un 10% de la barra de participación
Wink

leandrojulian
Administrador
Administrador

Masculino
Cantidad de envíos : 51
Edad : 19
Barra de spam :
0 / 1000 / 100

Barra de participación :
100 / 100100 / 100

Medallitas :
Monedas :
Fecha de inscripción : 25/04/2008

Ver perfil de usuario http://mundopartitura.superforo.net

Volver arriba Ir abajo

Re: Maná (Arde el cielo)

Mensaje  J3$$!3 el Jue Oct 02, 2008 10:01 pm

leandrojulian escribió:Gracias por la partitura, aunque yo no tengo guitarra xdd

Seguro a los que tienen guitarra les gustará la partitura Wink

Ah, me acordé, te daré 5 monedas mas, y un 10% de la barra de participación
Wink

Gracias
avatar
J3$$!3
Moderador en práctica
Moderador en práctica

Femenino
Cantidad de envíos : 56
Edad : 28
Humor : Cansada
Barra de spam :
0 / 1000 / 100

Barra de participación :
100 / 100100 / 100

Medallitas :
Monedas : 96
Fecha de inscripción : 02/10/2008

Ver perfil de usuario

Volver arriba Ir abajo

Re: Maná (Arde el cielo)

Mensaje  Contenido patrocinado


Contenido patrocinado


Volver arriba Ir abajo

Ver el tema anterior Ver el tema siguiente Volver arriba

- Temas similares

 
Permisos de este foro:
No puedes responder a temas en este foro.